971 Views

ポール・マッカートニー「 Maybe I’m Amazed 恋することのもどかしさ カバー曲コンテスト!

スポンサーリンク




 

Maybe I’m Amazed Covers Competition

http://www.youtube.com/user/PAULMCCARTNEY#g/c/A690748488F42513

PAULMCCARTNEY チャンネルで見つけた、CGM(消費者作成メディア)コンテスト。

いろんなユーザーがこの名曲をカバーしている。

気に入ったのが、どことなく、少年時代のポールマッカートニーを彷彿させるこの男の子。
未来のポール・マッカートニーを見ている気がした。

 

ピアノを弾きながらのいい線いっている人。ギターの人、無表情すぎw

 

一人で多重録音!ご苦労様です!

 

 

やはり、ご本人を聞きたくなりましたが、その前に、ロッド・スチュアート the Facesでのカバーを…

 

 

そして、やはりご本人のウィングスの頃。若いです!

 

 

 

そして、歌に円熟味のある60歳過ぎてからのライブでも!

 

(by Paul McCartney)

Baby I’m amazed at the way you love me all the time
Maybe I’m afraid of the way I love you
Baby I’m amazed at the the way you pulled me out of time
Hung me on a line
Maybe I’m amazed at the way I really need you

Baby I’m a man and maybe I’m a lonely man
Who’s in the middle of something
That he dosen’t really understand
Babe I’m a man and maybe you’re the only woman
Who could ever help me
Baby won’t you help to me understand

(lead solo)

Baby I’m a man and maybe I’m a lonely man
Who’s in the middle of something
That he dosen’t really understand
Babe I’m a man and maybe you’re the only woman
Who could ever help me
Baby won’t you help me understand

Baby I’m amazed at the way you’re with me all the time
Maybe I’m afraid of the way I leave you
Baby I’m amazed at the way you help me sing my song
You right me when I’m wrong
Maybe I’m amazed at the way I really need you

(chorus no words)

(lead solo)

(chorus no words) (fades away)

Paul McCartney – Maybe I’m Amazed 歌詞 @ LoveCMSの洋楽歌詞

 

 

Intro:[A  D/F#  Dm/F  Em7  A]
Bb          F                    C               G
Maybe I'm a-mazed at the way ....
Bb          F/A(bass)          C(tacet)
Maybe I'm a-fraid of the ....(intro riff).
Bb          F                    C                G
Maybe I'm a-mazed at the way ...
Bb           F/A(bass)
Hung me ...
Ab                       Eb/G(bass)   C        C / / /
Maybe I'm a-mazed at ....
Chorus
D          Dmaj7              D7
Maybe I'm a man,  ...
(D7)   D6
In the middle of ....
G               Gmaj7  G     D(tacet) D Dm D D D Dm D
That he doesn't .....1  2 + 3 + 4  +
D          Dmaj7                  D7
Maybe I'm a man, ....
(D7)      D6
Who could ever ....
G              Gmaj7   G     D(tacet)Dm(tacet)Gm7(tacet)A7(tacet)
Baby won't you ....
Solo
Bb        F            C      G
e----1---1--3--1---------0-1-0---------|
B--3---3----------3--1----------3-0----|
G-----------------------------------0--|
D--------------------------------------|  PART I
A--------------------------------------|
E--------------------------------------|
Bb        F           C (tacet)intro riff
e----1---1--3--1---------0-------------|
B--3---3----------3--1-----1-----------|
G----------------------------0---------|
D------------------------------2-------|  PART II    (repeat PART I
A--------------------------------------|         then go to PART III below)
E--------------------------------------|
Bb      F/A(bass)   Ab     Eb/G(bass) C
e-----------------------------------------------------5-3-|
B--3-4-3---1----------1-2-1-----------------------3-5-----|
G-------------2---------------3-0-------------3-5---------|
D----------------3----------------1-------3-5-------------| PART III
A---------------------------------------3-----------------|
E---------------------------------------------------------|
return to chorus after solo
Verse 2 (rhythm guitar should scrape or mute strings during this verse).
Bb          F                       C               G
Maybe I'm a-mazed at the way ....
Bb          F/A(bass)          C (tacet)
Maybe I'm a-fraid of the way .... (intro riff)
Bb          F                    C               G
Maybe I'm a-mazed at the ...
Bb                F/A(bass)
Right me when ....
Ab                    Eb/G(bass)     C
Maybe I'm amazed at the way .....(fade over chorus chords
and vocal ad lib).

 

 



 


    
  

あなたにお勧めの記事

スポンサーリンク